Make your own free website on Tripod.com
Over the hills and far away (the Led Zeppelin side)     |   home
Another brick in the wall (part 1)   |   Another birck in the wall (part 2)   |   Arnold layne   |   Any colour you like   |   Astronomy Domine   |   Atom Heart mother   |   Biding my time   |   Brain Damage   |   Breathe
Atom Heart mother



Slide Guitar Solo After the Violin Solo

Em Am G Bm
e-|----12-----------------------------|-----------------------------------|
B-|/12----12------13------------------|---------------------15------------|
G-|----------12~-----14---------------|----16----16------------16---------|
D-|---------------------14~~----/-----|/17----17------14/16--------16~~---|
A-|-----------------------------------|-----------------------------------|
E-|-----------------------------------|-----------------------------------|
G#m Bb Eb Am B Em Am
e-|-----------------------------------|------------------/12---12/-14/--17|
B-|-----------------------------------|------------------------12---------|
G-|-16\13--13-------------------------|------------------------12---------|
D-|-----------13-----13\12-12~~-/-----|/17-----17\14-13~~-----------------|
A-|--------------11-------------------|-----18----------------------------|
E-|-----------------------------------|-----------------------------------|
G Bm G#m Bb
e-|~~~-19-20\19-19--19-19\17/19--19-19|\16--16----16\10-10~~-10--11---13--|
B-|-----------------------------------|--------16-------------------------|
G-|-----------------------------------|-----------------------------------|
D-|-----------------------------------|-----------------------------------|
A-|-----------------------------------|-----------------------------------|
E-|-----------------------------------|-----------------------------------|


Eb Am B Em Am
e-|13/15--15--15-15/17--17-17/19--19--|19\17/19-19~-12-12-12--14-15-15/17~|
B-|-----------------------------------|-----------------------------------|
G-|-----------------------------------|-----------------------------------|
D-|-----------------------------------|-----------------------------------|
A-|-----------------------------------|-----------------------------------|
E-|-----------------------------------|-----------------------------------|
G Bm G#m Bb
e-|17\15~~15-15----15-15/19-19~~19\17/|19-19~19\16------------------------|
B-|-------------15--------------------|-------------16----16\15-15-15-15x-|
G-|-----------------------------------|----------------16----------15-15x-|
D-|-----------------------------------|-----------------------------------|
A-|-----------------------------------|-----------------------------------|
E-|-----------------------------------|-----------------------------------|
Eb Am B Em......
e-|-----------------------------------|-----------------------------------|
B-|----16-16/20-20-20/22-22-22/24-24\-|-17~~~~~~--fade-in-----------------|
G-|/15--------------------------------|-----------------------------------|
D-|-----------------------------------|-----------------------------------|
A-|-----------------------------------|-----------------------------------|
E-|-----------------------------------|-----------------------------------|

FUNKY DUNG (Atom Heart Mother Suite)
Atom Heart Mother - PINK FLOYD [Gm]

10:48
e|-13^(15)~---13^(15)^13------------------------------------------------
B|-------------------------------------------14^(15)^14^(15)^14^(15)~~~-
G|-----------------------15~--17-15-13-15-17----------------------------
D|----------------------------------------------------------------------
A|----------------------------------------------------------------------
E|----------------------------------------------------------------------

11:02
e|--------------------------------------
B|-14^(15)^14-13------------------------
G|---------------15-12-10h12-^(15)-^12--
D|--------------------------------------
A|--------------------------------------
E|--------------------------------------

11:06
e|---------------------13------13-----13-----------------------
B|-14^(15)-13----13--------15-----15------14^(15)^14^(15)~~----
G|------------15-----------------------------------------------
D|-------------------------------------------------------------
A|-------------------------------------------------------------
E|-------------------------------------------------------------

11:15
e|-------15-13------------------------------
B|-13-15-------15---13/15--13^(15)-13^(15)--
G|------------------------------------------
D|------------------------------------------
A|------------------------------------------
E|------------------------------------------

11:20
e|------------------------------------
B|------------15\13--13/15--13-^(15)--
G|-12/15-17---------------------------
D|------------------------------------
A|------------------------------------
E|------------------------------------

11:29
e|-13^-15-13^(15)~~~^13-
B|----------------------
G|----------------------
D|----------------------
A|----------------------
E|----------------------

11:33
e|--15-15--13-15-13-15-13---------------------------------
B|------------------------15-13-15-13---------------------
G|------------------------------------15-17-15-^(17)-12~~~
D|--------------------------------------------------------
A|--------------------------------------------------------
E|--------------------------------------------------------

11:43
e|- 20^(22)(22)(22)(22)(22)(22)(22)(22)(22)(22)(22)(22
)(22)(22)(22)^20--18-15-18-15~~-
B|-----------------------------------------------------------------------------------
G|-----------------------------------------------------------------------------------
D|-----------------------------------------------------------------------------------
A|-----------------------------------------------------------------------------------
E|-----------------------------------------------------------------------------------

11:51
e|-----------------------------------------------------------------
B|-----------------------------------------------------------------
G|-17^(19)-17-15-17-17^(19)-------15-17-17^(19)-15-15-17-15~~------
D|--------------------------15-17----------------------------------
A|-----------------------------------------------------------------
E|-----------------------------------------------------------------

11:57
e|-----------------------------------------------------------------
B|--18-------------------------------------------------------------
G|--17^(19)-17-15---------15---------------------------------------
D|----------------17-15-17--17~------------------------------------
A|-----------------------------------------------------------------
E|-----------------------------------------------------------------

12:01
e|-------------------------------------------
B|-------------------------------------------
G|-5h3---5-5-5-5-5-5-5-5-5-5-3---3-----------
D|----h5-----------------------5---5~~~\-----
A|-------------------------------------------
E|-------------------------------------------

12:08
e|---------------------------15-----------------------------------
B|------------------------18----18--------------------------------
G|-17^(19)-17-15---17^(19)---------15-17^(19)------15-------------
D|--------------17----------------------------15-17---17----------
A|----------------------------------------------------------------
E|----------------------------------------------------------------

12:15
e|---------------------------------------------------------
B|--------------------------18-----------------------------
G|-17^(19)^17-15-15-17^(19)----17^(19)-15-------15---------
D|---------------------------------------15-17----17-------
A|---------------------------------------------------------
E|---------------------------------------------------------

12:22
e|----------------------------13------------------------
B|----------------------13-13-13^(15)-------11----------
G|----------------10-12-12-12---------10-12---12--------
D|-12\-10-10-12-----------------------------------------
A|------------------------------------------------------
E|------------------------------------------------------

12:29
e|---------------------------
B|--/8---8---8---8---8-8-\3--
G|-----0---0---0---0---------
D|---------------------------
A|---------------------------
E|---------------------------

12:36
e|----------------------------------------------
B|-18----------18---18--------------------------
G|-17^(19)-(19)--(19)--^17-15------15-----------
D|----------------------------15-17----17-------
A|----------------------------------------------
E|----------------------------------------------

12:43
e|------------------------------'''''|
B|-18--------------------------- |
G|-17^(19)(VIBRATO WITH BAR)---- |
D|------------------------------ |
A|------------------------------ |
E|------------------------------ \
> Repeat x2
12:49 /
e|---------------------- |
B|---------------------- |
G|-5^(7)(7)(7)-5-3------ |
D|------------------5--- |
A|---------------------- |
E|----------------------''''''''''''''

BASS
G|-----------------------
D|-----5---5-5-5-5-3-----
A|-------------------5---
E|-3-3-------------------

G|------------------------
D|-----5----3----5--------
A|-------/5---/5---5------
E|-3-3--------------------

G|---------------------- and some other
D|-----5---/5-/5-------- variations
A|---------------/5-/5--
E|-3-3------------------


TAB
/ = slide up
\ = slide down
h = hammer on
p = pull off
12^(15) = bend
(15)^12 = bend release