Make your own free website on Tripod.com
Over the hills and far away (the Led Zeppelin side)     |   home
Another brick in the wall (part 1)   |   Another birck in the wall (part 2)   |   Arnold layne   |   Any colour you like   |   Astronomy Domine   |   Atom Heart mother   |   Biding my time   |   Brain Damage   |   Breathe
Brain Damage
Pink Floyd
(Waters)

D
---2--------------2-------
---3------3--------------- <-- unless otherwise stated, use this pattern
---2----------2----------- for all D chords.
---0---0---------------0--
--------------------------
--------------------------


G7/D
---1--------------1-------
---0------0---------------
---0---------0------------
-------0---------------0--
--------------------------
--------------------------

E/D
-4-----------4-----
-5-----5-----------
-4--------4--------
-0--0-----------0--
-------------------
-------------------

A7
-3--------------
-2--------2-----
-2--2--2-----2--
-2--------------
-0--------------
----------------

Dsus2
--------0--------
--3--------3-----
-----2--------2--
-----------------
-----------------
-----------------

INTRO:

D(8times)

D D G7/D(2 times)
The lunatic is on the grass
D D G7/D(2 times)
The lunatic is on the grass

D D
Remembering games, and,

daisy chains and laughs Got to keep the loonies on the path
-4-------4--------4-------4----3-----------------3-------------------
-5---5------------5---5--------2-------2---2-----2------------2------
-4-----4----------4-----4------2---2-2---2-------2------2------------
---0-------0--------0-------0--2-----------------2-------------------
---------------------------------0-------------------0-----0-----0---
---------------------------------------------------------------------

The lunatic is in th hall
-2-------2---0-------0----------2-------2-----2-------2------1-------1----
-3---3-3---------3-------3------3---3---------3---3----------0---0--------
-2-----2---------------2-----2--2-----2-------2-----2--------0-----0------
-0-0-------0---0---0-------0------0-------0-----0-------0------0-------0--
--------------------------------------------------------------------------
--------------------------------------------------------------------------

The lunatics are in my hall
-1-------1---2-------2----2-------2----1-------1----1-------1----
-0---0-------3---3--------3---3--------0---0--------0---0--------
-0-----0-----2-----2------2-----2------0-----0------0-----0------
---0-------0---0-------0----0-------0----0-------0----0-------0--
-----------------------------------------------------------------
-----------------------------------------------------------------

The paper holds their folded faces to the floor And
-2-------2------2-------2-----4-------------4-----4-----------4-----
-3---3----------3---3---------5--------5----------5-----5-----------
-2-----2--------2-----2-------4-----------4----4--4--------4--------
---0-------0------0-------0---0----0-----------0--0--0-----------0--
--------------------------------------------------------------------
--------------------------------------------------------------------


every day, the paper boy brings more
-3--------------3-----------3-----2-------2---0-------0-----2-----2-0-
-2-------2------2-----2-----2-----3---3-----------3-----3---1---1-----
-2---2---2------2-----2-----2-----2-----------------2-------2-2-------
-2--------------2-----------------0-0---0---0---0---0-------0---------
---0---0---0-------0-----0-----0--------------------------0-----------
----------------------------------------------------------------------

CHORUS:
G A
And if the dam breaks open many years too soon
-----0---0------------------------------------------------------
-1-----0------------------0-----------0--------------2----------
----------------------0---0---0---------0------------2--------2-
---4--------------------------------0-----------2----2----0>2---
----------------------------------2----------0--0---------------
-----------0-2---3--------------3---------3---------------------

C G
And if there is no room upon the hill
-------------------0-------------------------------------
-------2-------1-----3-1>3-----------------------------0-
-----2---2-------0-----------------0---0---------------0-
---2--------------------------2----2---2--2--------0-----
-0---------0-3--------------3---3--3---3--3--------------
-----------------------------------------------3---------

A7
And if your head explodes with dark forebodings too
-----------------------------------------------------------
--0-------0-----0------------------0--------------0--------
-----0----0--0--0--------------0------0-------0>2---0-0>2--
----------0---------------0-----------------2--------------
--------------------------------------------0--------------
--------3------------3-------------------3-----------------

I'll see you in the dark side of the moon
---------------------------------------0-0-------------------------
--------2------------------1-----------1-1-----------------0-------
----2-----2------------0--------0------0-0-------------------0-----
------2--------------------------------2-2-------------------------
--0---------------3-----------------3----3-----------------------0-
---------------------------------------------------3-----3-----3---


Ah---------- Ah
-----------------------------------------
-----3----------3---------------2---2----
---2---2---0----4-------0-----2---2---0--
---------4-2--------5--------------------
-2---------2----------------0------------
-----------0-----------------------------


The lunatic is in my head
-2-------2---2---------2-----1-------1---1-------1----
-3---3-------3-----3---------0---0-------0---0--------
-2-----2-----2-------2-------0-----0-----0-----0------
---0-------0-----0--------0----0-------0---0-------0--
------------------------------------------------------
------------------------------------------------------


The lunatic is in my head
-2-------2----2-------2----1-------1---1-------1----
-3---3--------3---3--------0---0-------0---0--------
-2-----2------2-----2------0-----0-----0-----0------
---0-------0----0-------0----0-------0---0-------0--
----------------------------------------------------
----------------------------------------------------


You raise the blade, You make the change
-2-----------2-------2-------2---4--------------4----4-------4----
-3------3------------3---3-------5--------5----------5---5--------
-2---------2---------2-----2-----4-----------4-------4-----4------
-0----0---------0------0-------0-0-----0-----------0-0-0--------0-
------------------------------------------------------------------
------------------------------------------------------------------

You re-arrange me till I'm sane
-3--------------3------------------2-------2----0-----0--------
-2-------2------2------------2-----3---3--------3-3------------
-2---2-2--------2------2---2-------2-----2------2--------2--2--
-2--------------2------------------0-0-------0--0---0----0--0--
---0---------0-------0----------0------------------------------
---------------------------------------------------------------

You lock the door And throw away the key There's
-2----------------2---2-----------2----4------------4---4-----------4----
-3--------3-----------3-----3----------5------5---------5-----5----------
-2------------2-------2--------2-------4---------4------4--------4-------
-0----0-------------0-0--0-----------0-0---0------------0--0-----------0-
-------------------------------------------------------------------------
-------------------------------------------------------------------------

someone in my head, but is's not me
-3-3----------3------------------2------2---------0--------0--------
-2-------2----2-----------2------3------3---3--------3--------3-----
-2-----2------2-----2--2---------2------2------2--------2--------2--
-2------------2--------2---------0------0------0--------------------
-0---0-----0--0---0----0-----0-----------------0--------------------
--------------------------------------------------------------------

-2-----2--0---------2---------------
-1-----------1----------1-----------
-2--2------------2------------------
-0----------------------------------
------------------------------------
----------------------------0--2--3-


repeat chorus

outro: use chords at top.

D D G7/D G7/D D D G7/D G7/D D D
E/D E/D A7 A7 D Dsus2 D D E/D E/D
A7 A7 D Dsus2