Make your own free website on Tripod.com
Over the hills and far away (the Led Zeppelin side)     |   home
Achilles last stand   |   All of my love   |   Black Dog   |   Black mountin slide   |   Bring it on home   |   Communication breakdown   |   Custard Pie   |   D'yer Mak'er   |   Going to california   |   Good times,Bad times   |   Heartbreaker   |   Hey Hey what can I do?   |   Houses of the holy   |   I can't quit you baby   |   Im gonna crawl   |   Immigrant song   |   In my time of Dying   |   In the evening   |   Kashmir   |   Lemon song   |   Living loving maid   |   Misty Mountain top   |   Moby Dick   |   Nobodys fault but mine   |   Over the hills and far away   |   Rock and Roll   |   Since ive been loveing you   |   Stairway to heaven   |   Tangerine   |   Thank you   |   The Ocean   |   The rain song   |   The Rover   |   The song remains the same   |   Trampled underfoot   |   Traveling riverside blues   |   What is and what should never be   |   When the levee breaks   |   Whole lotta love   |   Wanton song   |   You Shook me   |   Your time is gonna come
Bring it on home
Led Zeppelin

Intro: moderate blues tempo; two eighth notes are played like a quarter and an
eighth under the little triplet bracket

/3-\ /3-\ /3-\ /3-\
|---------------------|---------------------|
|---------------------|---------------------|
|---------------------|---------------------| Repeat several hundred times
|---------------------|---------------------|
|-2--2-4--4-2-------2-|-2--2-4--4-2-------2-|
|-0--0-0--0-0--0-3h4--|-0--0-0--0-0--0-3h4--|

|---------------------|---------------------|
|---------------------|---------------------|
|---------------------|---------------------| Repeat once
|-2--2-4--4-2-------2-|-2--2-4--4-2-------2-|
|-0--0-0--0-0--0-3h4--|-0--0-0--0-0--0-3h4--|
|---------------------|---------------------|

|---------------------|---------------------|
|---------------------|---------------------|
|---------------------|---------------------| Repeat once
|---------------------|---------------------|
|-2--2-4--4-2-------2-|-2--2-4--4-2-------2-|
|-0--0-0--0-0--0-3h4--|-0--0-0--0-0--0-3h4--|

|---------------------|---------------------|
|---------------------|---------------------|
|---------------------|---------------------|
|---------------------|---------------------|
|-9--9-11-11-9-9-11-9-|-7--7-9--9-7--7-9--7-|
|-7--7-7--7--7-7-7--7-|-5--5-5--5-5--5-5--5-|

|---------------------|---------------------|
|---------------------|---------------------|
|---------------------|---------------------|
|---------------------|---------------------|
|-2--2-4--4-2-------2-|-2--2-4--4-2-------2-|
|-0--0-0--0-0--0-3h4--|-0--0-0--0-0--0-3h4--|

|---------------------|---------------------|
|---------------------|---------------------|
|---------------------|---------------------|
|---------------------|---------------------|
|-9--9-11-11-9-9-11-9-|-7--7-9--9-7--7-9--2-|
|-7--7-7--7--7-7-7--7-|-5--5-5--5-5--5-5--0-|

Now, it gets a bit slower, although it sounds faster because sixteenth notes
are now used....The eighth and sixteenth notes are now played evenly.

|--------------------------|--------------------------|
|--------------------------|--------------------------|
|-------------4--2p1-2p1---|-------------4--2p1-2-----| Play four times
|-----0h2----------------2-|-----0h2------------------|
|-0h2----------------------|-0h2----------------------|
|---------0----------------|---------0----------------|
^^^
Those are 16th notes


For the verses, it basically seems to go E7, A7, E7 (quarter notes).
E7 A7 E7
|-0---0---0------------|
|-0---2---0------------|
|-1---0---1------------|
|-0---2---0------------|
|-2---0---2------------|
|-0-------0---3-0------|
^
I usually bend that up a little...it's kind of a cool effect.

And in between verses (again)....

|--------------------------|--------------------------|
|--------------------------|--------------------------|
|-------------4--2p1-2p1---|-------------4--2p1-2-----| Play four times
|-----0h2----------------2-|-----0h2------------------|
|-0h2----------------------|-0h2----------------------|
|---------0----------------|---------0----------------|


Then it slows down quite a bit (this is like the intro)....

|---------------------|---------------------|
|---------------------|---------------------|
|---------------------|---------------------|
|---------------------|---------------------|
|-9--9-11-11-9-9-11-9-|-7--7-9--9-7--7-9--7-|
|-7--7-7--7--7-7-7--7-|-5--5-5--5-5--5-5--5-|

|---------------------|-------------------|
|---------------------|-------------------|
|---------------------|-------------------|
|---------------------|-------------------|
|-2--2-4--4-2-------2-|-2--2-4--4-2-------|
|-0--0-0--0-0--0-3h4--|-0--0-0--0-0-4--5--|

|---------------------|--------------------|
|---------------------|--------------------|
|---------------------|--------------------|
|---------------------|--------------------|
|-9--9-11-11-9-9-11-9-|-7--7-9--9-7--7-9---|
|-7--7-7--7--7-7-7--7-|-5--5-5--5-5--5-5-0-|

/-3--\ /--3---\ /--3---\ E7
|---12-------12--------12---------|---------------------|
|-9----9--10----10--11----11--12\-|---3-----------------|
|---------------------------------|---1-----------------|
|-9----9--10----10--11----11--12\-|---2-----------------|
|---------------------------------|---2-----------------|
|---------------------------------|-0-------------------|

Lyrics
~~~~~
Intro:
Ba-a-a-a-aby,
Ba-a-a-a-aby,
Gonna bring it on home to you.
I've got my ticket, I've got that load.
Got up, gone higher, all aboard.
Take my seat, right way back.
Ooh, yeah,
Watch this train roll down the track.
Gonna bring it on home,
Bring it on home to you.
Watch out, watch out.

Verses:
Try to tell you, baby,
What you tryin' to do?
Tryin' to love me, baby,
Love some other man, too.
Bring it on home,
Bring it on home.

Went a little walk downtown,
Messed and got back late.
Found a little note there waitin'.
It said, "Daddy, I just can't wait."
Bring it on home,
Bring it back home,
Bring it on home,
Bring it back home to me, baby.

Tell you, pretty baby,
Love to mess me 'roun'.
I'm gonna give you lovin', baby,
Gonna move you out of town.
Bring it on home,
Bring it on home.

Sweetest little thing
Daddy ever saw.
I'm gonna give you lovin', baby,
I'm gonna give you more.
Bring it on home,
Bring it on home,
Bring it on home,
Oh, yeah.

Outro:
Bring it on home,
Bring it on home to you.

--


Here's another version of Bring it on Home, by Led Zeppelin (sorry, no chorus,
just the beginning):

e---------------------------|
B---------------------------|
G---------------------------|
D---------------------------| x 4
A--2-2---4-4---2-2-------2--|
E--0-0---0-0---0-0---2-3----|



e---------------------------|
B---------------------------|
G---------------------------|
D--2-2---4-4---2-2-------2--| x 4
A--0-0---0-0---0-0---2-3----|
E---------------------------|



e---------------------------|
B---------------------------|
G---------------------------|
D---------------------------| x 2
A--2-2---4-4---2-2-------2--|
E--0-0---0-0---0-0---2-3----|


e---------------------------|
B---------------------------|
G---------------------------|
D--4-4---6-6---4-4---6-4----|
A--2-2---2-2---2-2---2-2----|
E---------------------------|


e---------------------------|
B---------------------------|
G---------------------------|
D--2-2---4-4---2-2---4-2----|
A--0-0---0-0---0-0---0-0----|
E---------------------------|


e---------------------------|
B---------------------------|
G---------------------------|
D---------------------------| x 4
A--2-2---4-4---2-2-------2--|
E--0-0---0-0---0-0---2-3----|

Here's how it goes.

e------------------------------------|--------------------------------------
B------------------------------------|--------------------------------------
G------------------------------------|--------------------------------------
D------------------5(7)-5--4-5-4-----|--------------5(7)-5-4-5--------------
A-------5-7----------------------5---|--------5-7---------------------------
E--5-7------0------------------------|---5-7------0-------------------------


>E-----------------------------------------------------------------------------
>B------------------------------------------------------------------------------
>G-------------------2~4--2-1-2-1-----------------------------2~4--2-1-2-------
>D-------0--h2--------------------2---------------0--h2-------------------------
>A-0--h2----------------------------------0--h2---------------------------------
>E--------------0---------------------------------------0-----------------------


This is the way to play this, because it leaves you in good shape to play the
chords, which are

----2--0-----------2--0-------------|
----2--0-----------2--0------------*|
----2--0-----------2--0-------------|
----2--0--0-h2-----2--0--0-f2-p2---*|
------------------------------------|
-0--------------0-------------------|
^ ^ ^ ^ ^ ^