Make your own free website on Tripod.com
Over the hills and far away (the Led Zeppelin side)     |   home
Achilles last stand   |   All of my love   |   Black Dog   |   Black mountin slide   |   Bring it on home   |   Communication breakdown   |   Custard Pie   |   D'yer Mak'er   |   Going to california   |   Good times,Bad times   |   Heartbreaker   |   Hey Hey what can I do?   |   Houses of the holy   |   I can't quit you baby   |   Im gonna crawl   |   Immigrant song   |   In my time of Dying   |   In the evening   |   Kashmir   |   Lemon song   |   Living loving maid   |   Misty Mountain top   |   Moby Dick   |   Nobodys fault but mine   |   Over the hills and far away   |   Rock and Roll   |   Since ive been loveing you   |   Stairway to heaven   |   Tangerine   |   Thank you   |   The Ocean   |   The rain song   |   The Rover   |   The song remains the same   |   Trampled underfoot   |   Traveling riverside blues   |   What is and what should never be   |   When the levee breaks   |   Whole lotta love   |   Wanton song   |   You Shook me   |   Your time is gonna come
Communication breakdown
LED ZEPPLIN

E           D A D E             DAD
Verse
E             D A D E        D A D
Hey, Girl, Stop what you're doin'
E          D A D E              D A D
Hey, Girl, You'll drive me to ruin
E           D A D E             DAD
I don't know what it is I like about you, but I like it alot
E            D A D E          D A D
Oh, to let me hold you, Let me feel you lovin charms.


Chorus

A7
Communication breakdown its always the same
B7
I'm havin' a nervous breakdown .. drive me insane

E         DAD E       DAD

Verse
E           D A D E             DAD
Hey, Girl, I got something I think you ought to know
E           D A D E             DAD
Hey, babe, I wanna tell you that I love you so
E           D A D E             DAD
I wanna hold you in my arms, yeah
E           D A D E             DAD
I'm never gonna let you go 'cause I like your charms


Chrous

Solo


Repeat
E           D A D E             DAD
Communications Breakdown
Communications Breakdown


Solo

D A D
e---------------------------------
B---T--------------------7---5--7-
G---A--------------------7---6--7-
D---B--------------------7---7--7-
A------------------------5---7--5-
E------0-0-0-0-0-0-0-0-0-----5----

This pattern doesn't change until the Chorus, where it switches to:

A5 A6A5 A6 A7 A5A6A5 A6 A7 A5A6A5 A6A7 A5A6A5 A6A5
e--------------------5---------------5---------------5-----------------
B---T----------------5---------------5---------------5-----------------
G---A----------------6---------------6---------------6-----------------
D---B----------------5---------------5---------------5-----------------
A------7-7-9-7-7-9-x-7---7-9-7-7-9-r-7---7-9-7-7-7-9-7---7-9-7-7-7-9-7-
E------5-5-5-5-5-5-x-5---5-5-5-5-5-r-5---5-5-5-5-5-5-5---5-5-5-5-5-5-5-
| | |
Semi P.M.---- Semi P.M. Semi P.M.-- Semi P.M.-----

B5 B6B5 B6B7 B5B6B5 B6B7 B5B6B5 B5B7 B5B6B5 B6
e------------------7---------------7----------------7----------------
B------------------7---------------7----------------7----------------
G------------------8---------------8----------------8----------------
D------------------7---------------7----------------7----------------
A--9-9-119-9-9-9-119---9-119-9-9-119---9-1199-9-9-119---9-119-9-9-11-
E--7-7-7-7-7-7-7-7-7---7-7-7-7-7-7-7---7-7-77-7-7-7-7---7-7-7-7-7-7-0
| |
---------------------- Semi P.M.---
note: The parts where it looks like I have the 119th fret indicated came from
the inconvenience of a two digit number (11), therefore no dash. The part
where it says "1199" and "77" are due to this same problem, as well as that two
sixteenth notes are played while up until here the pattern has been eigth
notes. In other words he doubles time splitting the note into two, but not
skipping a beat. This isn't really complex at all, the problem is the way I've
written out the TAB. It wouldn't be confusing if I knew how to do this
properly. Sorry.


Then back to the main riff of eigth note Es and the D-A-D changes,
after which the chorus is repeated. The second time through the main riff and
chorus there are some minor changes which are probably not too hard to figure,
including some slides and harmonics (at the seventh fret). This is because
there have actually been two electric guitars doing this part, and the second
guitar changes to these minor variations. Anyway, let's get to the solo:

During the solo the second guitar repeats this pattern (until the
chorus):

E D A E
e--------------------------------------
B---T--9-----------------7-----5---7---
G---A--9-9-9-9-9-9-9-9-r-7-----6---7---
D---B--9-9-9-9-9-9-9-9-r-7-----7---7---
A------7-7-7-7-7-7-7-7-r-5-----7---5---
E------0-0-0-0-0-0-0-0-r-------5-------
Semi-P.M. throughout

(ok I dont know how to do the solo but I think it is in the key of E so just make it up out of the penatoinc scale in E)