Make your own free website on Tripod.com
Over the hills and far away (the Led Zeppelin side)     |   home
Achilles last stand   |   All of my love   |   Black Dog   |   Black mountin slide   |   Bring it on home   |   Communication breakdown   |   Custard Pie   |   D'yer Mak'er   |   Going to california   |   Good times,Bad times   |   Heartbreaker   |   Hey Hey what can I do?   |   Houses of the holy   |   I can't quit you baby   |   Im gonna crawl   |   Immigrant song   |   In my time of Dying   |   In the evening   |   Kashmir   |   Lemon song   |   Living loving maid   |   Misty Mountain top   |   Moby Dick   |   Nobodys fault but mine   |   Over the hills and far away   |   Rock and Roll   |   Since ive been loveing you   |   Stairway to heaven   |   Tangerine   |   Thank you   |   The Ocean   |   The rain song   |   The Rover   |   The song remains the same   |   Trampled underfoot   |   Traveling riverside blues   |   What is and what should never be   |   When the levee breaks   |   Whole lotta love   |   Wanton song   |   You Shook me   |   Your time is gonna come
You Shook me
Led Zeppelin

Intro:



E-|---------------------------------------------------------------------------
B-|-17-17-15-17--15-12--------------\17-17-15-17-15--12----12-----------------
G-|--------------------14-12----------------------------14----14-12^----------
D-|--------------------------14\0------------------------------------14\0-----
A-|---------------------------------------------------------------------------
E-|---------------------------------------------------------------------------


E-|--------------------------|
B-|--------------------------|
G-|-------14-12^-------------| Then some weird slide thing...
D-|-12-14--------14^-12-14-12| If I had my slide, I'd figure it out.
A-|--------------------------|
E-|--------------------------|




1st verse



You Know You Shook Me... You shook me all night long...



E-|---------------------------------------------------------------------------
B-|---------------------------------------------------------------------------
G-|--------------------------------------------------12-----------------------
D-|--2--7--5--2--2--2--2--2---7--5--2-------12---14-------14------------------
A-|--2--7--5--2--2--4--4--2---5--5--2----14---------------------12\0----------
E-|--0--5--3--0--0--0--0--0---5--3--0-----------------------------------------



You know you shook me baby


E-|---------------------------------------------------------------------------
B-|---------------------------------------------------------------------------
G-|-----------------------------------------12--------------------------------
D-|--2--7--5--2--2--2--2--2--------12--14--------14--12-14\0------------------
A-|--2--7--5--2--2--4--4--2---14----------------------------------------------
E-|--0--5--3--0--0--0--0--0---------------------------------------------------



You shook me all night long



E-|---------------------------------------------------------------------------
B-|---------------------------------------------------------------------------
G-|--------------12-----------------------------------------------------------
D-|------12---14------14----12\0----2--7--5--2--2--2--2--2--------------------
A-|-14------------------------------2--7--5--2--2--4--4--2--------------------
E-|---------------------------------0--5--3--0--0--0--0--0--------------------




You shook me so hard baby Baby, baby please come home



E-|---------------------------------------------------------------------------
B-|--12-------12----15-12----------17-15-17-15--------------------------------
G-|------14------14-------14-12\0--------------16-14-16-14--12^---------------
D-|---------------------------------------------------------------14----------
A-|---------------------------------------------------------------------------
E-|---------------------------------------------------------------------------


E-|-----------------------|
B-|-----------------------| Ok, 2nd verse is the same, except Robert
G-|-------14-12^----------| is talking about a bird or something.
D-|----14--------14^-12\0-| Jimmy varies a little, and I've tried to
A-|-14--------------------| tab that out.
E-|-----------------------|




I have a bird won't do nothin' AAAAAHHH (Lets see him do that now)


E-|-----------------------------------------22^-22^-22^-22^-22^-22--19--------
B-|------------------15--12--------------------------------------------22-----
G-|-14-14^-14-14^-14--------14--12\0------------------------------------------
D-|---------------------------------------------------------------------------
A-|---------------------------------------------------------------------------
E-|---------------------------------------------------------------------------



Buy a diamond ring yeah!



E-|-19--------------------------------------------------------19-|
B-|----22-19^-----------22-20-22-22-20^-----------------20-22----|
G-|-----------21-----21-----------------21-19-21-19--21----------|
D-|---------------21---------------------------------------------|
A-|--------------------------------------------------------------|
E-|--------------------------------------------------------------|







Ok, now we have an organ solo, harmonica solo, and a guitar solo.

Here are the basic chords played during all three. This is not



entirely accurate, but it's good enough for me. Sorry I couldn't

tab out the guitar solo, it's too fast for me to tab, but I can

fake it on a good day...



E-|---------------------------------------------------------------------------
B-|---------------------------------------------------------------------------
G-|---------------------------------------------------------------------------
D-|--2-7-5-2-2-2-2-2-2-7-5-2-2-2-2-2-2-7-5-2-2-2-2-2-2-2-7-5-2-2-2-2-2-2-2-2--
A-|--2-7-5-2-2-4-4-2-2-5-5-2-2-4-4-2-2-5-5-2-2-2-4-4-2-2-5-5-2-2-2-4-4-2-2-2--
E-|--0-5-3-0-0-0-0-0-0-5-3-0-0-0-0-0-0-5-3-0-0-0-0-0-0-0-5-3-0-0-0-0-0-0-0-0--



E-|---------------------------------------------------------------------------
B-|---------------------------------------------------------------------------
G-|---------------------------------------------------------------------------
D-|-5-5-5-5-5-5-5-5-5-5-5-5-5-5-5-5-5-5-2-2-2-2-2-2-7-5-2-2-2-2-2-2-2-2-3-7-9-
A-|-7-5-7-7-9-9-7-7-5-7-3-7-9-9-7-3-7-3-2-2-2-4-4-2-5-5-2-2-2-4-4-2-2-2-3-7-9-
E-|-7-3-7-7-7-7-7-7-3-7-3-7-7-7-7-3-7-3-0-0-0-0-0-0-5-3-0-0-0-0-0-0-0-0-5-5-7-

|







A few of these, then



E-|-7-------------------------------------------------------------------------

|

B-|-7-------------------------------------------------------------------------

|

G-|-8-------------------------------------------------------------------------

|

D-|-9---------------------7---------5-5---------7-7-5-5-4-4-2-2---------------

|

A-|-9---------------------7-----5-7-----7-5-7-7-7-7-5-5-4-4-2-2---------------

|

E-|-7---------------------5--5-7----------------5-5-3-3-2-2-0-0---------------

|







3rd verse, more of the same, here's the variations...



You shook me soo hard baby



E-|-------------------------------------------15^-15-15^-12-------------------

|

B-|---------------------------------15^-12-15---------------------------------

|

G-|--14^-14-12-14-12-14-12-14^------------------------------------------------

|

D-|---------------------------------------------------------------------------

|

A-|---------------------------------------------------------------------------

|

E-|---------------------------------------------------------------------------

|







Babe.... Ah Ahh... Ah Ahhhh...



E-|---------------15^-15^-----------------15^-15^15----------15^-15-12--12----

|

B-|-------------------------------------------------------------------15--15--

|

G-|---------------------------------------------------------------------------

|

D-|---------------------------------------------------------------------------

|

A-|---------------------------------------------------------------------------

|

E-|---------------------------------------------------------------------------

|







Ah Ahhhhh... Ah Ahhhh... Ah Ahhh...



E-|--------15^-15-12--12-------------17^-12-12-------17^v^-12-12--------------

|

B-|-----------------15--15----------------------------------------------------

|

G-|---------------------------------------------------------------------------

|

D-|---------------------------------------------------------------------------

|

A-|---------------------------------------------------------------------------

|

E-|---------------------------------------------------------------------------

|







Coda:

You shook me all night long...



E-|-----------------------------------------------------12-15-15^v^v^v^-------

|

B-|-----------------------------------------------12-15-----------------------

|

G-|---14^v^v^-----------------------------------------------------------------

|

D-|---------------------------------------------------------------------------

|

A-|---------------------------------------------------------------------------

|

E-|---------------------------------------------------------------------------

|







E-|-15-12----12\0-------------------------------------------------------------

|

B-|-------15------------------------------------------------------------------

|

G-|---------------------------------------------------------------------------

|

D-|------------------2/7\2----------------------------------------------------

|

A-|------------------2/7\2----------------------------------------------------

|

E-|------------------0/5\0----------------------------------------------------