Make your own free website on Tripod.com
Over the hills and far away (the Led Zeppelin side)     |   home
Achilles last stand   |   All of my love   |   Black Dog   |   Black mountin slide   |   Bring it on home   |   Communication breakdown   |   Custard Pie   |   D'yer Mak'er   |   Going to california   |   Good times,Bad times   |   Heartbreaker   |   Hey Hey what can I do?   |   Houses of the holy   |   I can't quit you baby   |   Im gonna crawl   |   Immigrant song   |   In my time of Dying   |   In the evening   |   Kashmir   |   Lemon song   |   Living loving maid   |   Misty Mountain top   |   Moby Dick   |   Nobodys fault but mine   |   Over the hills and far away   |   Rock and Roll   |   Since ive been loveing you   |   Stairway to heaven   |   Tangerine   |   Thank you   |   The Ocean   |   The rain song   |   The Rover   |   The song remains the same   |   Trampled underfoot   |   Traveling riverside blues   |   What is and what should never be   |   When the levee breaks   |   Whole lotta love   |   Wanton song   |   You Shook me   |   Your time is gonna come
Traveling riverside blues
Travelling Riverside Blues - Led Zeppelin
-----------------------------------------

Key
---

/ - Slide using a slide
s - Slide with your finger
h - Hammer on
p - Pull off
pb - Pre-Bend
b - bend
M - Muted Notes

I don't think I used anymore and please remember to drop your high E by
two semi-tones to a D!



12-String Guitar (with slide) Tablature
----------------------------------------

D---/-12-12-12-12---12-\----0-0-3-5---3-0---Ý-------------------------------
B---/-12-12-12-12---12-\----0-0-3-5---3-0---Ý-------3-------3------3------3-
G---/-12-12-12-12---12-\----0-0-3-5---3-0---Ý-----0-------0------0------0---
D-------------------------------------------Ý---3------2-------0------------
A-------------------------------------------Ý------------------------3------
E-------------------------------------------Ý-------------------------------
Fade in


D---------Ý-/--12-12-12-12---12--\------0-3-5---3-0--Ý-----------------------
B---------Ý-/--12-12-12-12---12--\------0-3-5---3-0--Ý-----3-----3----3-----3
G---------Ý-/--12-12-12-12---12--\------0-3-5---3-0--Ý---0-----0----0-----0--
D---------Ý------------------------------------------Ý-3-----2----0----------
A--1h2----Ý------------------------------------------Ý------------------3----
E------3--Ý------------------------------------------Ý-----------------------

D----------Ý---/--12-12-12-12---12--\------0-3-5---3-0--Ý--------------------
B----------Ý---/--12-12-12-12---12--\------0-3-5---3-0--Ý------3-----3-----3-
G----------Ý---/--12-12-12-12---12--\------0-3-5---3-0--Ý----0-----0-----0---
D-------0--Ý--------------------------------------------Ý--3-----2-----0-----
A--1h2-----Ý--------------------------------------------Ý--------------------
E----------Ý--------------------------------------------Ý--------------------


D-----------------Ý
B-------3---------Ý
G----0------------Ý
D--------------0--Ý
A-3--------1h2----Ý
E-----------------Ý

D---/--12-12-12-12---12--\------0-3-5---3-0--Ý----------------------------
B---/--12-12-12-12---12--\------0-3-5---3-0--Ý------3-----3-----3-----3---
G---/--12-12-12-12---12--\------0-3-5---3-0--Ý----0-----0-----0-----0-----
D--------------------------------------------Ý--3-----2-----0-------------
A--------------------------------------------Ý--------------------3-------
E--------------------------------------------Ý----------------------------
That's Right!


D-----------------Ý----------------------------------------3--
B-------3---------Ý----------------------------------------3--
G----0------------Ý----0--------0---------0----------------0--
D--------------0--Ý----0--0--0--2---2--2--3----3--3----2---0--
A-3--------1h2----Ý-------------------------------------------
E-----------------Ý-------------------------------------------
M M M M M M
Now Sweet Ma-Ma let____ me

D----------------------------------------3--Ý
B----------------------------------------3--Ý
G----0--------0---------0----------------0--Ý
D----0--0--0--2---2--2--3----3--3----2---0--Ý
A-------------------------------------------Ý
E-------------------------------------------Ý
M M M M M M
Be your kid_____ cos Then__



D----------------------------------------3--Ý
B----------------------------------------3--Ý
G----0--------0---------0----------------0--Ý
D----0--0--0--2---2--2--3----3--3----2---0--Ý
A-------------------------------------------Ý
E-------------------------------------------Ý
M M M M M M
you might get hurt if you do you'll



D----------------------------------------3--Ý
B----------------------------------------3--Ý
G----0--------0---------0----------------0--Ý
D----0--0--0--2---2--2--3----3--3----2---0--Ý
A-------------------------------------------Ý
E-------------------------------------------Ý
M M M M M M
a keep it hid well I______


D-----------------5------------5--5----------Ý
B-----------------5------------5--5----------Ý
G-------5-----5---5------------5--5----------Ý
D--------------------------------------------Ý
A--5h7---------------------------------------Ý
E--------------------------------------------Ý

I know my ba-----by----


D----5------------5------------5--5----------Ý
B----5------------5------------5--5----------Ý
G----5--5-----5---5------------5--5----------Ý
D--------------------------------------------Ý
A--------------------------------------------Ý
E--------------------------------------------Ý

If I see her in the dark


D----------------------------------------3--Ý
G----------------------------------------3--Ý
G----0--------0---------0----------------0--Ý
D----0--0--0--2---2--2--3----3--3----2---0--Ý (play twice)
A-------------------------------------------Ý
E-------------------------------------------Ý
M M M M M M




D---0----0---0---0--0----0------Ý--/-5---5--5--0-/-3--/-3--Ý
B---1----0---1---0--0----1------Ý--/-5---5--5--0-/-3--/-3--Ý
G---2----2---2---2--2----2------Ý--/-5---5--5--0-/-3--/-3--Ý
D---0----0---0------------------Ý--------------------------Ý
A-------------------------------Ý--------------------------Ý
E-------------------------------Ý--------------------------Ý

I said I know my Ri--der If I see her in the dark___.

D--0----0-------0------0------0-----Ý----0--------0---------0--Ý
B--0----0-----3-----3---------------Ý--3-----------------------Ý
G--0----0---------------------------Ý--------------------------Ý
D-------0---3-------2--2---1-----1--Ý--0----------0---------0--Ý
A-----------------------------------Ý--------------------------Ý
E-----------------------------------Ý-------3/5----------------Ý

(The whole song repeats twice then this happens)

D---/-12-12-12-12---12-\----0-0-3-5---3-0---Ý-------------------------------
B---/-12-12-12-12---12-\----0-0-3-5---3-0---Ý-------3-------3------3------3-
G---/-12-12-12-12---12-\----0-0-3-5---3-0---Ý-----0-------0------0------0---
D-------------------------------------------Ý---3------2-------0------------
A-------------------------------------------Ý------------------------3------
E-------------------------------------------Ý-------------------------------



D---------Ý
B---------Ý
G---------Ý
D------0--Ý (Play four times)
A--1h2----Ý
E---------Ý

Okay I've given all the main 12 string acoustic riffs now so you can
work out what fits where I think I have it just about right. All that's
left now is the solo on 6 String Electric.



Electric Guitar Solo
---------------------

D-------------------------------------------------Ý-----------------------
B-------------------------------------------------Ý-----------------------
G---pb15b14--12-------12--pb16b14--12-----12--14b15b14-12-----12--14b16---
D----------------14-------------------14----------Ý--------14-------------
A-------------------------------------------------Ý-----------------------
E-------------------------------------------------Ý-----------------------


D----------12----------------------------------------------------Ý--------
B--13--14--------------------------------------------------------Ý--------
G---------------12--pb16b14--12------12--pb15b14--12------12--pb16b14-----
D--------------------------------14-------------------14---------Ý--------
A----------------------------------------------------------------Ý--------
E----------------------------------------------------------------Ý--------

D-------------------------12---------------Ý-------------------------------Ý
B----------------------------15b17-15------Ý-------------------------------Ý
G--12------12--14--14b16--------------12---Ý--pb15-------------------------Ý
D------14----------------------------------Ý-------------------------------Ý
A------------------------------------------Ý-------------------------------Ý
E------------------------------------------Ý-------------------------------Ý

D-----------5--3-----------------------------Ý--------5-----------------Ý
B--------3--------3h6p3-----3----------------Ý--------------------------Ý
G---pb7------------------6-----6--5--3-----3-Ý--5b7------pb7b5--3----3--Ý
D---------------------------------------5----Ý--------------------5-----Ý
A--------------------------------------------Ý--------------------------Ý
E--------------------------------------------Ý--------------------------Ý

D---------------------------------------------------------------------Ý
B-------3------------8--10b12--8--10---------------------------15b17--Ý
G--4---------7----9-------------------9--7------7----------12---------Ý
D-------------------------------------------10------12s14-------------Ý
A---------------------------------------------------------------------Ý
E---------------------------------------------------------------------Ý
Won't you come in my kitchen?

D-12------------------------------------------------------Ý---------------
B-----14--13--11h13--11-----------------------------------Ý-------3--6p3--
G-----------------------14-12-----14p12-----12-----12--14-Ý--5b7----------
D-----------------------------14--------14-----14---------Ý---------------
A---------------------------------------------------------Ý---------------
E---------------------------------------------------------Ý---------------

D-------------------------------------------------------Ý------------------
B-----3--6p3--------3-6p3-------------------------------Ý-------------------
G-5b7----------5b7---------5--5p3--5p3--5p3-------------Ý-------------------
D--------------------------------------------5p3--------Ý-------------------
A-------------------------------------------------5p3h5-Ý--3p1-------1--3s5-
E-------------------------------------------------------Ý-------3-3---------

D-----------------------------------------Ý
B-----------------------------------------Ý
G--------------------3--5p3h5p3--3--3--5--Ý
D--3--5p3-----3-4-5-----------------------Ý
A----------5------------------------------Ý
E-----------------------------------------Ý